Log ind         eller        Opret en gratis konto
 
  Tilbage

Musicmate.dk | Shadows - Apache Bass Tabs/Fingerspil

Shadows - Apache

Bass Tabs/Fingerspil
         Slå akkorder op    Print sang  Se forfatter 


  W          W            E E E E E E E E   E E E E E E E E
|----------|----------||------------------|-------------------||
|----------|----------||o-----------------|------------------o||
|----------|----------||o-----------------|-5-5-5-5-5-5-5-5--o||
|----------|----------||--5-5-5-5-5-5-5-5-|-------------------||


 Verse
  Q.   E Q  Q    H    Q  Q    Q.   E Q  Q    H    Q  Q
|--------------|------5--4--|--------------|------------|
|-7----7-------|------------|-7----7-------|------------|
|--------7-----|-5----------|--------7-----|---------7--|
|-----------8--|------------|-----------8--|-5----8-----|


  H    Q  Q    H    Q  Q    Q.   E Q  Q    H    Q  Q
|------------|------5--4--|--------------|------------|
|------7-----|------------|-7----7-------|------------|
|---------7--|-5----------|--------7-----|---------7--|
|-5----------|------------|-----------8--|-5----8-----|


  H    Q  Q    H    Q  Q    H    Q  Q    H    Q  Q
|------------|------5--4--|------------|------------|
|------------|-5----------|------------|------------|
|-5----8--7--|------------|-5----8--7--|-5----8--7--|
|------------|------------|------------|------------|


  H    Q  Q    H    Q  Q    H    Q  Q    H    Q  Q
|------------|------------|------------|--------------||
|-7----7-----|------4-----|------7-----|-7------------||
|---------7--|-5-------7--|---------7--|---------7----||
|------------|------------|-5----------|------8-------||


 Chorus
  Q  Q  Q  Q    Q  Q  Q  Q    Q.   E H      Q  Q  Q  Q
|-------------|-------------|-------------|-------------|
|-------------|-------------|-------------|-------------|
|----8-----8--|----8-----8--|-7----7------|-------7-----|
|-8-----8-----|-8-----8-----|--------5----|-5--8-----5--|


  E E E E E E E E   E E E E E E E E   Q.   E H      Q  Q  Q  Q
|-----------------|-----------------|-------------|-------------||
|-----------------|-----------------|-------------|-------------||
|-----8-8-----8-8-|-----8-8-----8-8-|-7----7------|-------7-----||
|-8-8-----8-8-----|-8-8-----8-8-----|--------5----|-5--8-----5--||


 Bridge
  H    Q  Q    H    Q  Q    H    Q  Q    Q.   E Q  Q
|------------|------------|------------|--------------|
|------------|------------|------------|--------------|
|------------|---------7--|------------|-----------7--|
|-1----5--8--|-3----8-----|-8----5--0--|-5----5-8-----|


  H    Q  Q    H    Q  Q    Q.   E Q  Q    H    Q  Q
|------------|------------|--------------|------------|
|------------|------------|--------------|------------|
|------------|---------7--|--------------|-3----------|
|-1----5--8--|-3----8-----|-8----8-3--0--|------0--3--|


  H    Q  Q    H    Q  Q    H    Q  Q    H    Q  Q
|------------|------------|------------|------------|
|------------|------------|------------|------------|
|------------|---------5--|------------|---------7--|
|-1----5--8--|-3----8-----|-8----5--0--|-5----8-----|


   Chorus
    E E E E E E E E   E E E E E E E E
||------------------|-----------------|
||o-----------------|-----------------|
||o-----8-8-----8-8-|-----8-8-----8-8-|
||--8-8-----8-8-----|-8-8-----8-8-----|


             1.             2.
  H    H      Q  Q  H        Q  Q  Q  Q
|-----------|-------------||---------------||
|-----------|------------o||---------------||
|-7---------|----7-------o||----7-----7----||
|------5----|-5-----5-----||-8-----5-------||


   Verse
    Q  E E Q  E E   Q  E E Q  E E   Q  E E Q  E E
||----------------|---------------|---------------|
||o---------------|---------------|---------------|
||o-------------5-|-5----5-5------|---------------|
||--5----5-5------|-------------5-|-5----5-5----5-|


 1.                2.
  Q  E E Q  E E     Q  E E E E E E
|----------------||------------------|
|---------------o||------------------|
|---------------o||------------------|
|-5----5-5----5--||-5----5-8-5-8-5---|


  H    Q  Q    H    Q  Q    H    Q  Q    H    Q  Q
|------------|------5--4--|------------|------------|
|------------|-5----------|------------|------------|
|-5----8--7--|------------|-5----8--7--|-5----8--7--|
|------------|------------|------------|------------|


  Q  E E Q  E E   Q  E E Q  E E   Q  E E Q  E E   Q  Q  Q  Q
|---------------|---------------|---------------|-------------|
|---------------|---------------|---------------|-------------|
|---------------|---------------|---------------|----------7--|
|-5----5-5----5-|-5----5-5----5-|-5----5-5----5-|-5--5--8-----|


   Bridge
                                            1.               2.
    H    Q  Q    H    Q  Q    Q.   E Q  Q    Q.   E Q  Q      H    Q  Q
||-------------|------------|--------------|---------------||--------------|
||o------------|------------|--------------|--------------o||--------------|
||o------------|---------7--|--------------|-----------7--o||-3------------|
||--1----5--8--|-3----8-----|-8----8-5--0--|-5----5-8------||------0--3----|


  H    Q  Q    H    Q  Q    H    Q  Q    H    Q  Q
|------------|------------|------------|------------||
|------------|------------|------------|------------||
|------------|---------7--|------------|---------7--||
|-1----5--8--|-3----8-----|-8----5--0--|-5----8-----||


 Chorus
  E E E E E E E E   E E E E E E E E   H    H      Q  Q  Q  Q
|-----------------|-----------------|-----------|-------------|
|-----------------|-----------------|-----------|-------------|
|-----8-8-----8-8-|-----8-8-----8-8-|-7---------|-------7-----|
|-8-8-----8-8-----|-8-8-----8-8-----|------5----|-5--8-----5--|


  E E E E E E E E   E E E E E E E E   H    Q  Q    H    Q  Q
|-----------------|-----------------|------------|------------|
|-----------------|-----------------|------7-----|------------|
|-----------------|---------8-8-8-8-|-7-------7--|---------7--|
|-1-1-1-1-5-5-5-5-|-8-8-8-8---------|------------|-5----8-----|


   Outro
    E E E E E E E E   E E E E E E E E   E E E E E E E E   E E E E E E E E
||------------------|-----------------|-----------------|-------------------||
||o-----------------|-----------------|-----------------|------------------o||
||o-----------------|-5-5-5-5-5-5-5-5-|-----------------|-5-5-5-5-5-5-5-5--o||
||--5-5-5-5-5-5-5-5-|-----------------|-5-5-5-5-5-5-5-5-|-------------------||


Kommentar

Log ind eller opret en bruger, for at skrive en kommentar


Kontakt os • Hvis du oplever nogen problemer, finder fejl eller har forslag. Copyright 2007 - 2018