Log ind         eller        Opret en gratis konto
 
  Tilbage

Musicmate.dk | Thomas Helmig - Nu hvor du har brændt mig af Guitar Akkorder

Thomas Helmig - Nu hvor du har brændt mig af

Guitar Akkorder
         Slå akkorder op    Print sang  Se forfatter 


Intro: D|D/G#|Hm|Hm  x4

e|----------5--------------------------
B|-7-7-7-7-----7--5---5----------------
G|------------------7---7---4~4-------- x 2
D|-------------------------------------
A|-------------------------------------
E|-------------------------------------

e|-5-5-5-5-5--5-5--7--10-10------------
B|-------------------------------------
G|-------------------------------------
D|-------------------------------------
A|-------------------------------------
E|-------------------------------------

e|----------5--------------------------
B|-7-7-7-7-----7--5---5----------------
G|------------------7---7---4~4--------
D|-------------------------------------
A|-------------------------------------
E|-------------------------------------

Vers 1

D               D/G#     Hm
Nu hvor du har brændt mig af
D               D/G#     Hm
Nu hvor du har smidt mig væk
D               D/G#             Hm    G D
nu hvor du har stukket mig ned bagfra
D                 D/G#           Hm
har du det godt så, og er du glad igen.


Vers 2

D               D/G#     Hm
Nu hvor du har brugt mine penge
D               D/G#     
nu hvor du har suget alt,
                Hm
hvad der minder om kraft ud af mig
D               D/G#           Hm
nu hvor du har gjort mig til grin
G            D           D/G#      Hm
har du det godt så, og er du glad igen.


Omkvæd

G           Hm               A
Forstå mig ret det er ikke fordi,
D                     D/G#       G
at jeg ikke har noget godt at sige

det kommer nok en dag
Hm                      A
når fornuften vender tilbage
G
Men når jeg nu savner dig
 Hm                        A
hvordan kan du så undvære mig
D D/G#  G                A
Aj aj. Hvordan kan du så undvære mig
D D/G#  G                A
Aj aj. Hvordan kan du så undvære mig


Intro spilles igen

Vers 3

Nu hvor du har brændt mig af
Nu hvor du har smidt mig væk
nu hvor du har stukket mig ned bagfra
har du det godt så, og er du glad igen.

Omkvæd

Forstå mig ret det er ikke fordi,
at jeg ikke har noget godt at sige
det kommer nok en dag
når fornuften vender tilbage
Men når jeg nu savner dig
hvordan kan du så undvære mig 

Forstå mig ret det er ikke fordi,
at jeg ikke har noget bedre at sige
det kommer nok en dag
når fornuften vender tilbage
Men når jeg nu savner dig
hvordan kan du så undvære mig

Kommentar

Log ind eller opret en bruger, for at skrive en kommentar


Kontakt os • Hvis du oplever nogen problemer, finder fejl eller har forslag. Copyright 2007 - 2018